ISO-10303-21;
HEADER;
FILE_DESCRIPTION (( 'STEP AP203' ),
    '1' );
FILE_NAME ('N-SF1-BPBSC-10-1200-1600.STEP',
    '2021-01-05T02:13:50',
    ( '' ),
    ( '' ),
    'SwSTEP 2.0',
    'SolidWorks 2020',
    '' );
FILE_SCHEMA (( 'CONFIG_CONTROL_DESIGN' ));
ENDSEC;

DATA;
#1 = PLANE ( 'NONE',  #177 ) ;
#2 = CALENDAR_DATE ( 2021, 5, 1 ) ;
#3 = FACE_OUTER_BOUND ( 'NONE', #254, .T. ) ;
#4 = ORIENTED_EDGE ( 'NONE', *, *, #38, .T. ) ;
#5 = PERSON_AND_ORGANIZATION ( #139, #157 ) ;
#6 = PLANE ( 'NONE',  #26 ) ;
#7 = EDGE_CURVE ( 'NONE', #54, #53, #235, .T. ) ;
#8 = ORIENTED_EDGE ( 'NONE', *, *, #74, .F. ) ;
#9 = VERTEX_POINT ( 'NONE', #23 ) ;
#10 = CARTESIAN_POINT ( 'NONE',  ( -4.999999999999999112, -5.000000000000000000, 5.000000000000000000 ) ) ;
#11 = DIRECTION ( 'NONE',  ( 0.7071067811865474617, -0.7071067811865475727, 0.000000000000000000 ) ) ;
#12 = PLANE ( 'NONE',  #154 ) ;
#13 = CARTESIAN_POINT ( 'NONE',  ( -4.999999999999999112, 5.000000000000001776, 5.000000000000000000 ) ) ;
#14 = CARTESIAN_POINT ( 'NONE',  ( -4.999999999999999112, -5.000000000000000000, 5.000000000000000000 ) ) ;
#15 = CC_DESIGN_PERSON_AND_ORGANIZATION_ASSIGNMENT ( #178, #202, ( #312 ) ) ;
#16 = PLANE ( 'NONE',  #44 ) ;
#17 = PERSON_AND_ORGANIZATION ( #139, #157 ) ;
#18 = SECURITY_CLASSIFICATION_LEVEL ( 'unclassified' ) ;
#19 =( GEOMETRIC_REPRESENTATION_CONTEXT ( 3 ) GLOBAL_UNCERTAINTY_ASSIGNED_CONTEXT ( ( #166 ) ) GLOBAL_UNIT_ASSIGNED_CONTEXT ( ( #68, #144, #315 ) ) REPRESENTATION_CONTEXT ( 'NONE', 'WORKASPACE' ) );
#20 = APPROVAL_ROLE ( '' ) ;
#21 = DATE_TIME_ROLE ( 'classification_date' ) ;
#22 = ORIENTED_EDGE ( 'NONE', *, *, #201, .T. ) ;
#23 = CARTESIAN_POINT ( 'NONE',  ( -4.999999999999999112, -5.000000000000000000, -5.000000000000000000 ) ) ;
#24 = EDGE_CURVE ( 'NONE', #9, #53, #107, .T. ) ;
#25 = VERTEX_POINT ( 'NONE', #124 ) ;
#26 = AXIS2_PLACEMENT_3D ( 'NONE', #212, #299, #278 ) ;
#27 = VECTOR ( 'NONE', #261, 1000.000000000000000 ) ;
#28 = ORIENTED_EDGE ( 'NONE', *, *, #50, .T. ) ;
#29 = CARTESIAN_POINT ( 'NONE',  ( 5.000000000000000888, 5.000000000000001776, 5.000000000000000000 ) ) ;
#30 = EDGE_LOOP ( 'NONE', ( #303, #78, #302, #152 ) ) ;
#31 = CARTESIAN_POINT ( 'NONE',  ( -4.999999999999999112, -5.000000000000000000, 5.000000000000000000 ) ) ;
#32 = ORIENTED_EDGE ( 'NONE', *, *, #168, .T. ) ;
#33 = CLOSED_SHELL ( 'NONE', ( #271, #286, #243, #263, #292 ) ) ;
#34 = DIRECTION ( 'NONE',  ( 0.7071067811865475727, 0.7071067811865474617, 0.000000000000000000 ) ) ;
#35 = SECURITY_CLASSIFICATION ( '', '', #18 ) ;
#36 = DIRECTION ( 'NONE',  ( 2.220446049250313081E-16, 1.000000000000000000, 0.000000000000000000 ) ) ;
#37 = CARTESIAN_POINT ( 'NONE',  ( -5.000000000000000888, -4.999999999999998224, -5.000000000000000000 ) ) ;
#38 = EDGE_CURVE ( 'NONE', #185, #25, #214, .T. ) ;
#39 = DIRECTION ( 'NONE',  ( 0.7071067811865475727, 0.7071067811865474617, 0.000000000000000000 ) ) ;
#40 = APPROVAL_PERSON_ORGANIZATION ( #17, #295, #268 ) ;
#41 = CARTESIAN_POINT ( 'NONE',  ( 0.000000000000000000, 0.000000000000000000, 0.000000000000000000 ) ) ;
#42 = DIRECTION ( 'NONE',  ( 1.734723475976807094E-16, 1.000000000000000000, -0.000000000000000000 ) ) ;
#43 = LINE ( 'NONE', #196, #65 ) ;
#44 = AXIS2_PLACEMENT_3D ( 'NONE', #250, #249, #93 ) ;
#45 = COORDINATED_UNIVERSAL_TIME_OFFSET ( 8, 0, .AHEAD. ) ;
#46 = CARTESIAN_POINT ( 'NONE',  ( 5.000000000000002665, 5.000000000000000000, 5.000000000000000000 ) ) ;
#47 = VECTOR ( 'NONE', #42, 1000.000000000000000 ) ;
#48 = PERSON_AND_ORGANIZATION ( #139, #157 ) ;
#49 = LINE ( 'NONE', #276, #306 ) ;
#50 = EDGE_CURVE ( 'NONE', #305, #25, #49, .T. ) ;
#51 = ORIENTED_EDGE ( 'NONE', *, *, #201, .F. ) ;
#52 = COORDINATED_UNIVERSAL_TIME_OFFSET ( 8, 0, .AHEAD. ) ;
#53 = VERTEX_POINT ( 'NONE', #105 ) ;
#54 = VERTEX_POINT ( 'NONE', #237 ) ;
#55 = PRODUCT_DEFINITION_SHAPE ( 'NONE', 'NONE',  #312 ) ;
#56 = CC_DESIGN_APPROVAL ( #295, ( #312 ) ) ;
#57 = DIRECTION ( 'NONE',  ( -0.000000000000000000, 0.000000000000000000, 1.000000000000000000 ) ) ;
#58 = APPLICATION_CONTEXT ( 'configuration controlled 3d designs of mechanical parts and assemblies' ) ;
#59 = CARTESIAN_POINT ( 'NONE',  ( -4.999999999999999112, 5.000000000000001776, -5.000000000000000000 ) ) ;
#60 = ORIENTED_EDGE ( 'NONE', *, *, #273, .F. ) ;
#61 = CARTESIAN_POINT ( 'NONE',  ( 5.000000000000002665, 5.000000000000000000, 5.000000000000000000 ) ) ;
#62 = LINE ( 'NONE', #244, #84 ) ;
#63 = LINE ( 'NONE', #220, #227 ) ;
#64 = DIRECTION ( 'NONE',  ( -0.7071067811865474617, 0.7071067811865475727, 0.000000000000000000 ) ) ;
#65 = VECTOR ( 'NONE', #92, 1000.000000000000000 ) ;
#66 = CC_DESIGN_PERSON_AND_ORGANIZATION_ASSIGNMENT ( #5, #301, ( #191 ) ) ;
#67 = APPLICATION_CONTEXT ( 'configuration controlled 3d designs of mechanical parts and assemblies' ) ;
#68 =( LENGTH_UNIT ( ) NAMED_UNIT ( * ) SI_UNIT ( .MILLI., .METRE. ) );
#69 = FACE_OUTER_BOUND ( 'NONE', #163, .T. ) ;
#70 = DIRECTION ( 'NONE',  ( -0.7071067811865475727, -0.7071067811865474617, 0.000000000000000000 ) ) ;
#71 = ADVANCED_FACE ( 'NONE', ( #3 ), #1, .T. ) ;
#72 = COORDINATED_UNIVERSAL_TIME_OFFSET ( 8, 0, .AHEAD. ) ;
#73 = CARTESIAN_POINT ( 'NONE',  ( -4.999999999999999112, -5.000000000000000000, 5.000000000000000000 ) ) ;
#74 = EDGE_CURVE ( 'NONE', #129, #305, #210, .T. ) ;
#75 = APPROVAL_PERSON_ORGANIZATION ( #104, #79, #123 ) ;
#76 = PERSON_AND_ORGANIZATION_ROLE ( 'design_supplier' ) ;
#77 = DIRECTION ( 'NONE',  ( -1.000000000000000000, 1.734723475976807094E-16, 0.000000000000000000 ) ) ;
#78 = ORIENTED_EDGE ( 'NONE', *, *, #164, .F. ) ;
#79 = APPROVAL ( #274, 'UNSPECIFIED' ) ;
#80 = DIRECTION ( 'NONE',  ( -0.7071067811865475727, -0.7071067811865474617, 0.000000000000000000 ) ) ;
#81 = VERTEX_POINT ( 'NONE', #73 ) ;
#82 = DIRECTION ( 'NONE',  ( -1.734723475976807094E-16, -1.000000000000000000, 0.000000000000000000 ) ) ;
#83 = ORIENTED_EDGE ( 'NONE', *, *, #24, .T. ) ;
#84 = VECTOR ( 'NONE', #219, 1000.000000000000000 ) ;
#85 = DIRECTION ( 'NONE',  ( 0.000000000000000000, -0.000000000000000000, 1.000000000000000000 ) ) ;
#86 = ORIENTED_EDGE ( 'NONE', *, *, #119, .T. ) ;
#87 = CARTESIAN_POINT ( 'NONE',  ( 5.000000000000002665, 5.000000000000000000, 5.000000000000000000 ) ) ;
#88 = ORIENTED_EDGE ( 'NONE', *, *, #50, .F. ) ;
#89 = DATE_AND_TIME ( #2, #217 ) ;
#90 = LINE ( 'NONE', #31, #296 ) ;
#91 = FACE_OUTER_BOUND ( 'NONE', #213, .T. ) ;
#92 = DIRECTION ( 'NONE',  ( -0.7071067811865475727, -0.7071067811865474617, 0.000000000000000000 ) ) ;
#93 = DIRECTION ( 'NONE',  ( 2.220446049250313081E-16, 1.000000000000000000, 0.000000000000000000 ) ) ;
#94 = ADVANCED_FACE ( 'NONE', ( #149 ), #298, .F. ) ;
#95 = APPROVAL_DATE_TIME ( #320, #295 ) ;
#96 = CARTESIAN_POINT ( 'NONE',  ( 5.000000000000002665, 5.000000000000000000, 5.000000000000000000 ) ) ;
#97 = VECTOR ( 'NONE', #309, 1000.000000000000000 ) ;
#98 = ADVANCED_BREP_SHAPE_REPRESENTATION ( 'N-SF1-BPBSC-10-1200-1600', ( #251, #132, #114 ), #19 ) ;
#99 = CALENDAR_DATE ( 2021, 5, 1 ) ;
#100 = CARTESIAN_POINT ( 'NONE',  ( 0.000000000000000000, 0.000000000000000000, 5.000000000000000000 ) ) ;
#101 = PERSON_AND_ORGANIZATION_ROLE ( 'classification_officer' ) ;
#102 = ORIENTED_EDGE ( 'NONE', *, *, #7, .F. ) ;
#103 = CC_DESIGN_DATE_AND_TIME_ASSIGNMENT ( #181, #21, ( #35 ) ) ;
#104 = PERSON_AND_ORGANIZATION ( #139, #157 ) ;
#105 = CARTESIAN_POINT ( 'NONE',  ( 5.000000000000000888, -5.000000000000000000, -5.000000000000000000 ) ) ;
#106 = ORIENTED_EDGE ( 'NONE', *, *, #197, .T. ) ;
#107 = LINE ( 'NONE', #182, #316 ) ;
#108 = ORIENTED_EDGE ( 'NONE', *, *, #115, .T. ) ;
#109 = DIRECTION ( 'NONE',  ( 1.000000000000000000, 0.000000000000000000, 0.000000000000000000 ) ) ;
#110 = ORIENTED_EDGE ( 'NONE', *, *, #38, .F. ) ;
#111 = LINE ( 'NONE', #140, #97 ) ;
#112 = VECTOR ( 'NONE', #126, 1000.000000000000000 ) ;
#113 = PLANE ( 'NONE',  #183 ) ;
#114 = AXIS2_PLACEMENT_3D ( 'NONE', #41, #223, #174 ) ;
#115 = EDGE_CURVE ( 'NONE', #185, #240, #189, .T. ) ;
#116 = PERSON_AND_ORGANIZATION_ROLE ( 'design_owner' ) ;
#117 = CC_DESIGN_PERSON_AND_ORGANIZATION_ASSIGNMENT ( #230, #101, ( #35 ) ) ;
#118 = DIRECTION ( 'NONE',  ( 1.000000000000000000, -2.220446049250313081E-16, 0.000000000000000000 ) ) ;
#119 = EDGE_CURVE ( 'NONE', #129, #185, #187, .T. ) ;
#120 = FACE_OUTER_BOUND ( 'NONE', #275, .T. ) ;
#121 = CC_DESIGN_PERSON_AND_ORGANIZATION_ASSIGNMENT ( #319, #116, ( #176 ) ) ;
#122 = CARTESIAN_POINT ( 'NONE',  ( 5.000000000000000888, 5.000000000000001776, 5.000000000000000000 ) ) ;
#123 = APPROVAL_ROLE ( '' ) ;
#124 = CARTESIAN_POINT ( 'NONE',  ( -5.000000000000000888, -4.999999999999998224, -5.000000000000000000 ) ) ;
#125 = APPROVAL ( #211, 'UNSPECIFIED' ) ;
#126 = DIRECTION ( 'NONE',  ( -0.000000000000000000, -0.000000000000000000, -1.000000000000000000 ) ) ;
#127 = ORIENTED_EDGE ( 'NONE', *, *, #179, .F. ) ;
#128 = AXIS2_PLACEMENT_3D ( 'NONE', #284, #311, #36 ) ;
#129 = VERTEX_POINT ( 'NONE', #253 ) ;
#130 = ADVANCED_FACE ( 'NONE', ( #207 ), #6, .F. ) ;
#131 = CARTESIAN_POINT ( 'NONE',  ( 5.000000000000000888, -5.000000000000000000, 5.000000000000000000 ) ) ;
#132 = MANIFOLD_SOLID_BREP ( '¾µÏ', #33 ) ;
#133 = DIRECTION ( 'NONE',  ( 2.220446049250313081E-16, 1.000000000000000000, 0.000000000000000000 ) ) ;
#134 = VECTOR ( 'NONE', #281, 1000.000000000000000 ) ;
#135 = COORDINATED_UNIVERSAL_TIME_OFFSET ( 8, 0, .AHEAD. ) ;
#136 = LOCAL_TIME ( 10, 13, 50.00000000000000000, #52 ) ;
#137 = CARTESIAN_POINT ( 'NONE',  ( 5.000000000000002665, 5.000000000000000000, 5.000000000000000000 ) ) ;
#138 = CARTESIAN_POINT ( 'NONE',  ( 5.000000000000000888, 5.000000000000001776, 5.000000000000000000 ) ) ;
#139 = PERSON ( 'UNSPECIFIED', 'UNSPECIFIED', 'UNSPECIFIED', ('UNSPECIFIED'), ('UNSPECIFIED'), ('UNSPECIFIED') ) ;
#140 = CARTESIAN_POINT ( 'NONE',  ( 5.000000000000002665, 5.000000000000000000, -5.000000000000000000 ) ) ;
#141 = VECTOR ( 'NONE', #215, 1000.000000000000000 ) ;
#142 = DIRECTION ( 'NONE',  ( 1.000000000000000000, -4.857225732735059864E-17, 0.000000000000000000 ) ) ;
#143 = ADVANCED_FACE ( 'NONE', ( #91 ), #12, .F. ) ;
#144 =( NAMED_UNIT ( * ) PLANE_ANGLE_UNIT ( ) SI_UNIT ( $, .RADIAN. ) );
#145 = CLOSED_SHELL ( 'NONE', ( #143, #190, #94, #71, #130 ) ) ;
#146 = DIRECTION ( 'NONE',  ( -0.7071067811865475727, -0.7071067811865474617, 0.000000000000000000 ) ) ;
#147 = DATE_AND_TIME ( #270, #246 ) ;
#148 = CALENDAR_DATE ( 2021, 5, 1 ) ;
#149 = FACE_OUTER_BOUND ( 'NONE', #285, .T. ) ;
#150 = EDGE_CURVE ( 'NONE', #240, #129, #239, .T. ) ;
#151 = APPROVAL_DATE_TIME ( #89, #79 ) ;
#152 = ORIENTED_EDGE ( 'NONE', *, *, #74, .T. ) ;
#153 = ORIENTED_EDGE ( 'NONE', *, *, #173, .T. ) ;
#154 = AXIS2_PLACEMENT_3D ( 'NONE', #137, #11, #34 ) ;
#155 = ORIENTED_EDGE ( 'NONE', *, *, #289, .T. ) ;
#156 = ORIENTED_EDGE ( 'NONE', *, *, #179, .T. ) ;
#157 = ORGANIZATION ( 'UNSPECIFIED', 'UNSPECIFIED', '' ) ;
#158 = CARTESIAN_POINT ( 'NONE',  ( -5.000000000000000888, -4.999999999999998224, 5.000000000000000000 ) ) ;
#159 = ORIENTED_EDGE ( 'NONE', *, *, #273, .T. ) ;
#160 = PLANE ( 'NONE',  #288 ) ;
#161 = EDGE_LOOP ( 'NONE', ( #310, #234, #260 ) ) ;
#162 = CARTESIAN_POINT ( 'NONE',  ( 5.000000000000002665, 5.000000000000000000, 5.000000000000000000 ) ) ;
#163 = EDGE_LOOP ( 'NONE', ( #255, #110, #108, #232 ) ) ;
#164 = EDGE_CURVE ( 'NONE', #240, #180, #63, .T. ) ;
#165 = CARTESIAN_POINT ( 'NONE',  ( 5.000000000000002665, 5.000000000000000000, -5.000000000000000000 ) ) ;
#166 = UNCERTAINTY_MEASURE_WITH_UNIT (LENGTH_MEASURE( 1.000000000000000082E-05 ), #68, 'distance_accuracy_value', 'NONE');
#167 = DIRECTION ( 'NONE',  ( 0.000000000000000000, 1.000000000000000000, 0.000000000000000000 ) ) ;
#168 = EDGE_CURVE ( 'NONE', #25, #180, #313, .T. ) ;
#169 = LINE ( 'NONE', #96, #170 ) ;
#170 = VECTOR ( 'NONE', #146, 1000.000000000000000 ) ;
#171 = CC_DESIGN_SECURITY_CLASSIFICATION ( #35, ( #191 ) ) ;
#172 = APPROVAL_STATUS ( 'not_yet_approved' ) ;
#173 = EDGE_CURVE ( 'NONE', #53, #236, #111, .T. ) ;
#174 = DIRECTION ( 'NONE',  ( 1.000000000000000000, 0.000000000000000000, 0.000000000000000000 ) ) ;
#175 = VECTOR ( 'NONE', #70, 1000.000000000000000 ) ;
#176 = PRODUCT ( 'N-SF1-BPBSC-10-1200-1600', 'N-SF1-BPBSC-10-1200-1600', '', ( #248 ) ) ;
#177 = AXIS2_PLACEMENT_3D ( 'NONE', #100, #57, #109 ) ;
#178 = PERSON_AND_ORGANIZATION ( #139, #157 ) ;
#179 = EDGE_CURVE ( 'NONE', #81, #54, #290, .T. ) ;
#180 = VERTEX_POINT ( 'NONE', #59 ) ;
#181 = DATE_AND_TIME ( #99, #225 ) ;
#182 = CARTESIAN_POINT ( 'NONE',  ( -4.999999999999999112, -5.000000000000000000, -5.000000000000000000 ) ) ;
#183 = AXIS2_PLACEMENT_3D ( 'NONE', #247, #222, #314 ) ;
#184 = EDGE_LOOP ( 'NONE', ( #258, #283, #279 ) ) ;
#185 = VERTEX_POINT ( 'NONE', #307 ) ;
#186 = EDGE_CURVE ( 'NONE', #180, #305, #62, .T. ) ;
#187 = LINE ( 'NONE', #29, #175 ) ;
#188 = VERTEX_POINT ( 'NONE', #87 ) ;
#189 = LINE ( 'NONE', #158, #27 ) ;
#190 = ADVANCED_FACE ( 'NONE', ( #241 ), #265, .F. ) ;
#191 = PRODUCT_DEFINITION_FORMATION_WITH_SPECIFIED_SOURCE ( 'ANY', '', #176, .NOT_KNOWN. ) ;
#192 = DIRECTION ( 'NONE',  ( -0.000000000000000000, -0.000000000000000000, -1.000000000000000000 ) ) ;
#193 = ORIENTED_EDGE ( 'NONE', *, *, #7, .T. ) ;
#194 = CARTESIAN_POINT ( 'NONE',  ( 5.000000000000000888, 5.000000000000001776, 5.000000000000000000 ) ) ;
#195 = PLANE ( 'NONE',  #128 ) ;
#196 = CARTESIAN_POINT ( 'NONE',  ( 5.000000000000002665, 5.000000000000000000, -5.000000000000000000 ) ) ;
#197 = EDGE_CURVE ( 'NONE', #188, #236, #242, .T. ) ;
#198 = VECTOR ( 'NONE', #304, 1000.000000000000000 ) ;
#199 = CARTESIAN_POINT ( 'NONE',  ( 5.000000000000000888, 5.000000000000001776, -5.000000000000000000 ) ) ;
#200 = APPROVAL_PERSON_ORGANIZATION ( #48, #125, #20 ) ;
#201 = EDGE_CURVE ( 'NONE', #81, #9, #90, .T. ) ;
#202 = PERSON_AND_ORGANIZATION_ROLE ( 'creator' ) ;
#203 = VECTOR ( 'NONE', #142, 1000.000000000000000 ) ;
#204 = LOCAL_TIME ( 10, 13, 50.00000000000000000, #224 ) ;
#205 = VECTOR ( 'NONE', #192, 1000.000000000000000 ) ;
#206 = PERSON_AND_ORGANIZATION ( #139, #157 ) ;
#207 = FACE_OUTER_BOUND ( 'NONE', #161, .T. ) ;
#208 = DATE_TIME_ROLE ( 'creation_date' ) ;
#209 = AXIS2_PLACEMENT_3D ( 'NONE', #46, #77, #82 ) ;
#210 = LINE ( 'NONE', #122, #134 ) ;
#211 = APPROVAL_STATUS ( 'not_yet_approved' ) ;
#212 = CARTESIAN_POINT ( 'NONE',  ( 0.000000000000000000, 0.000000000000000000, -5.000000000000000000 ) ) ;
#213 = EDGE_LOOP ( 'NONE', ( #155, #51, #259, #106 ) ) ;
#214 = LINE ( 'NONE', #231, #198 ) ;
#215 = DIRECTION ( 'NONE',  ( 1.000000000000000000, 0.000000000000000000, 0.000000000000000000 ) ) ;
#216 = ORIENTED_EDGE ( 'NONE', *, *, #300, .T. ) ;
#217 = LOCAL_TIME ( 10, 13, 50.00000000000000000, #135 ) ;
#218 = FACE_OUTER_BOUND ( 'NONE', #277, .T. ) ;
#219 = DIRECTION ( 'NONE',  ( 1.000000000000000000, -4.857225732735059864E-17, 0.000000000000000000 ) ) ;
#220 = CARTESIAN_POINT ( 'NONE',  ( -4.999999999999999112, 5.000000000000001776, 5.000000000000000000 ) ) ;
#221 = DESIGN_CONTEXT ( 'detailed design', #58, 'design' ) ;
#222 = DIRECTION ( 'NONE',  ( -4.857225732735059864E-17, -1.000000000000000000, 0.000000000000000000 ) ) ;
#223 = DIRECTION ( 'NONE',  ( 0.000000000000000000, 0.000000000000000000, 1.000000000000000000 ) ) ;
#224 = COORDINATED_UNIVERSAL_TIME_OFFSET ( 8, 0, .AHEAD. ) ;
#225 = LOCAL_TIME ( 10, 13, 50.00000000000000000, #72 ) ;
#226 = APPLICATION_PROTOCOL_DEFINITION ( 'international standard', 'config_control_design', 1994, #67 ) ;
#227 = VECTOR ( 'NONE', #282, 1000.000000000000000 ) ;
#228 = PRODUCT_RELATED_PRODUCT_CATEGORY ( 'detail', '', ( #176 ) ) ;
#229 = DIRECTION ( 'NONE',  ( 1.000000000000000000, 0.000000000000000000, 0.000000000000000000 ) ) ;
#230 = PERSON_AND_ORGANIZATION ( #139, #157 ) ;
#231 = CARTESIAN_POINT ( 'NONE',  ( -5.000000000000000888, -4.999999999999998224, 5.000000000000000000 ) ) ;
#232 = ORIENTED_EDGE ( 'NONE', *, *, #164, .T. ) ;
#233 = ORIENTED_EDGE ( 'NONE', *, *, #197, .F. ) ;
#234 = ORIENTED_EDGE ( 'NONE', *, *, #173, .F. ) ;
#235 = LINE ( 'NONE', #131, #112 ) ;
#236 = VERTEX_POINT ( 'NONE', #165 ) ;
#237 = CARTESIAN_POINT ( 'NONE',  ( 5.000000000000000888, -5.000000000000000000, 5.000000000000000000 ) ) ;
#238 = EDGE_LOOP ( 'NONE', ( #83, #102, #127, #22 ) ) ;
#239 = LINE ( 'NONE', #194, #203 ) ;
#240 = VERTEX_POINT ( 'NONE', #13 ) ;
#241 = FACE_OUTER_BOUND ( 'NONE', #238, .T. ) ;
#242 = LINE ( 'NONE', #61, #205 ) ;
#243 = ADVANCED_FACE ( 'NONE', ( #267 ), #113, .F. ) ;
#244 = CARTESIAN_POINT ( 'NONE',  ( 5.000000000000000888, 5.000000000000001776, -5.000000000000000000 ) ) ;
#245 = VECTOR ( 'NONE', #133, 1000.000000000000000 ) ;
#246 = LOCAL_TIME ( 10, 13, 50.00000000000000000, #45 ) ;
#247 = CARTESIAN_POINT ( 'NONE',  ( 5.000000000000000888, 5.000000000000001776, 5.000000000000000000 ) ) ;
#248 = MECHANICAL_CONTEXT ( 'NONE', #67, 'mechanical' ) ;
#249 = DIRECTION ( 'NONE',  ( 0.000000000000000000, -0.000000000000000000, 1.000000000000000000 ) ) ;
#250 = CARTESIAN_POINT ( 'NONE',  ( 0.000000000000000000, 0.000000000000000000, -5.000000000000000000 ) ) ;
#251 = MANIFOLD_SOLID_BREP ( 'Í¹Ì¨-À', #145 ) ;
#252 = CC_DESIGN_APPROVAL ( #79, ( #35 ) ) ;
#253 = CARTESIAN_POINT ( 'NONE',  ( 5.000000000000000888, 5.000000000000001776, 5.000000000000000000 ) ) ;
#254 = EDGE_LOOP ( 'NONE', ( #216, #156, #159 ) ) ;
#255 = ORIENTED_EDGE ( 'NONE', *, *, #168, .F. ) ;
#256 = DATE_AND_TIME ( #148, #136 ) ;
#257 = ORIENTED_EDGE ( 'NONE', *, *, #186, .T. ) ;
#258 = ORIENTED_EDGE ( 'NONE', *, *, #119, .F. ) ;
#259 = ORIENTED_EDGE ( 'NONE', *, *, #300, .F. ) ;
#260 = ORIENTED_EDGE ( 'NONE', *, *, #24, .F. ) ;
#261 = DIRECTION ( 'NONE',  ( 2.220446049250313081E-16, 1.000000000000000000, 0.000000000000000000 ) ) ;
#262 = LINE ( 'NONE', #162, #47 ) ;
#263 = ADVANCED_FACE ( 'NONE', ( #287 ), #195, .T. ) ;
#264 = DIRECTION ( 'NONE',  ( -0.000000000000000000, -0.000000000000000000, -1.000000000000000000 ) ) ;
#265 = PLANE ( 'NONE',  #280 ) ;
#266 = CC_DESIGN_PERSON_AND_ORGANIZATION_ASSIGNMENT ( #206, #76, ( #191 ) ) ;
#267 = FACE_OUTER_BOUND ( 'NONE', #30, .T. ) ;
#268 = APPROVAL_ROLE ( '' ) ;
#269 = CALENDAR_DATE ( 2021, 5, 1 ) ;
#270 = CALENDAR_DATE ( 2021, 5, 1 ) ;
#271 = ADVANCED_FACE ( 'NONE', ( #218 ), #160, .F. ) ;
#272 = APPROVAL_DATE_TIME ( #256, #125 ) ;
#273 = EDGE_CURVE ( 'NONE', #54, #188, #262, .T. ) ;
#274 = APPROVAL_STATUS ( 'not_yet_approved' ) ;
#275 = EDGE_LOOP ( 'NONE', ( #28, #32, #257 ) ) ;
#276 = CARTESIAN_POINT ( 'NONE',  ( 5.000000000000000888, 5.000000000000001776, -5.000000000000000000 ) ) ;
#277 = EDGE_LOOP ( 'NONE', ( #88, #8, #86, #4 ) ) ;
#278 = DIRECTION ( 'NONE',  ( 1.000000000000000000, 0.000000000000000000, 0.000000000000000000 ) ) ;
#279 = ORIENTED_EDGE ( 'NONE', *, *, #115, .F. ) ;
#280 = AXIS2_PLACEMENT_3D ( 'NONE', #10, #167, #85 ) ;
#281 = DIRECTION ( 'NONE',  ( -0.000000000000000000, 0.000000000000000000, -1.000000000000000000 ) ) ;
#282 = DIRECTION ( 'NONE',  ( -0.000000000000000000, 0.000000000000000000, -1.000000000000000000 ) ) ;
#283 = ORIENTED_EDGE ( 'NONE', *, *, #150, .F. ) ;
#284 = CARTESIAN_POINT ( 'NONE',  ( 0.000000000000000000, 0.000000000000000000, 5.000000000000000000 ) ) ;
#285 = EDGE_LOOP ( 'NONE', ( #153, #233, #60, #193 ) ) ;
#286 = ADVANCED_FACE ( 'NONE', ( #69 ), #293, .F. ) ;
#287 = FACE_OUTER_BOUND ( 'NONE', #184, .T. ) ;
#288 = AXIS2_PLACEMENT_3D ( 'NONE', #138, #64, #39 ) ;
#289 = EDGE_CURVE ( 'NONE', #236, #9, #43, .T. ) ;
#290 = LINE ( 'NONE', #14, #141 ) ;
#291 = DIRECTION ( 'NONE',  ( 0.000000000000000000, 0.000000000000000000, 1.000000000000000000 ) ) ;
#292 = ADVANCED_FACE ( 'NONE', ( #120 ), #16, .F. ) ;
#293 = PLANE ( 'NONE',  #308 ) ;
#294 = APPLICATION_PROTOCOL_DEFINITION ( 'international standard', 'config_control_design', 1994, #58 ) ;
#295 = APPROVAL ( #172, 'UNSPECIFIED' ) ;
#296 = VECTOR ( 'NONE', #264, 1000.000000000000000 ) ;
#297 = SHAPE_DEFINITION_REPRESENTATION ( #55, #98 ) ;
#298 = PLANE ( 'NONE',  #209 ) ;
#299 = DIRECTION ( 'NONE',  ( -0.000000000000000000, 0.000000000000000000, 1.000000000000000000 ) ) ;
#300 = EDGE_CURVE ( 'NONE', #188, #81, #169, .T. ) ;
#301 = PERSON_AND_ORGANIZATION_ROLE ( 'creator' ) ;
#302 = ORIENTED_EDGE ( 'NONE', *, *, #150, .T. ) ;
#303 = ORIENTED_EDGE ( 'NONE', *, *, #186, .F. ) ;
#304 = DIRECTION ( 'NONE',  ( -0.000000000000000000, 0.000000000000000000, -1.000000000000000000 ) ) ;
#305 = VERTEX_POINT ( 'NONE', #199 ) ;
#306 = VECTOR ( 'NONE', #80, 1000.000000000000000 ) ;
#307 = CARTESIAN_POINT ( 'NONE',  ( -5.000000000000000888, -4.999999999999998224, 5.000000000000000000 ) ) ;
#308 = AXIS2_PLACEMENT_3D ( 'NONE', #321, #118, #291 ) ;
#309 = DIRECTION ( 'NONE',  ( 1.734723475976807094E-16, 1.000000000000000000, -0.000000000000000000 ) ) ;
#310 = ORIENTED_EDGE ( 'NONE', *, *, #289, .F. ) ;
#311 = DIRECTION ( 'NONE',  ( 0.000000000000000000, -0.000000000000000000, 1.000000000000000000 ) ) ;
#312 = PRODUCT_DEFINITION ( 'UNKNOWN', '', #191, #221 ) ;
#313 = LINE ( 'NONE', #37, #245 ) ;
#314 = DIRECTION ( 'NONE',  ( -1.000000000000000000, 4.857225732735059864E-17, 0.000000000000000000 ) ) ;
#315 =( NAMED_UNIT ( * ) SI_UNIT ( $, .STERADIAN. ) SOLID_ANGLE_UNIT ( ) );
#316 = VECTOR ( 'NONE', #229, 1000.000000000000000 ) ;
#317 = CC_DESIGN_DATE_AND_TIME_ASSIGNMENT ( #147, #208, ( #312 ) ) ;
#318 = CC_DESIGN_APPROVAL ( #125, ( #191 ) ) ;
#319 = PERSON_AND_ORGANIZATION ( #139, #157 ) ;
#320 = DATE_AND_TIME ( #269, #204 ) ;
#321 = CARTESIAN_POINT ( 'NONE',  ( -5.000000000000000888, -4.999999999999998224, 5.000000000000000000 ) ) ;
ENDSEC;
END-ISO-10303-21;
